ISO-10303-21;
HEADER;
FILE_DESCRIPTION (( 'STEP AP203' ),
    '1' );
FILE_NAME ('N-SF1-BPBSC-25.4-620-1000.STEP',
    '2021-01-05T02:15:14',
    ( '' ),
    ( '' ),
    'SwSTEP 2.0',
    'SolidWorks 2020',
    '' );
FILE_SCHEMA (( 'CONFIG_CONTROL_DESIGN' ));
ENDSEC;

DATA;
#1 = FACE_OUTER_BOUND ( 'NONE', #158, .T. ) ;
#2 = FACE_OUTER_BOUND ( 'NONE', #57, .T. ) ;
#3 = APPLICATION_PROTOCOL_DEFINITION ( 'international standard', 'config_control_design', 1994, #210 ) ;
#4 = VECTOR ( 'NONE', #170, 999.9999999999998863 ) ;
#5 = DIRECTION ( 'NONE',  ( -0.7071067811865475727, 0.7071067811865475727, 0.000000000000000000 ) ) ;
#6 = DIRECTION ( 'NONE',  ( 0.000000000000000000, 1.000000000000000000, 0.000000000000000000 ) ) ;
#7 = DATE_AND_TIME ( #232, #301 ) ;
#8 = EDGE_CURVE ( 'NONE', #264, #38, #166, .T. ) ;
#9 = CC_DESIGN_PERSON_AND_ORGANIZATION_ASSIGNMENT ( #228, #100, ( #275 ) ) ;
#10 = ORIENTED_EDGE ( 'NONE', *, *, #297, .F. ) ;
#11 = AXIS2_PLACEMENT_3D ( 'NONE', #68, #14, #315 ) ;
#12 = VERTEX_POINT ( 'NONE', #218 ) ;
#13 = ORIENTED_EDGE ( 'NONE', *, *, #266, .F. ) ;
#14 = DIRECTION ( 'NONE',  ( -1.000000000000000000, 0.000000000000000000, 0.000000000000000000 ) ) ;
#15 = ORIENTED_EDGE ( 'NONE', *, *, #209, .F. ) ;
#16 = FACE_OUTER_BOUND ( 'NONE', #211, .T. ) ;
#17 = ORIENTED_EDGE ( 'NONE', *, *, #113, .F. ) ;
#18 = VECTOR ( 'NONE', #97, 1000.000000000000000 ) ;
#19 = LINE ( 'NONE', #117, #177 ) ;
#20 = UNCERTAINTY_MEASURE_WITH_UNIT (LENGTH_MEASURE( 1.000000000000000082E-05 ), #234, 'distance_accuracy_value', 'NONE');
#21 = CARTESIAN_POINT ( 'NONE',  ( 12.69999999999999574, 12.69999999999999574, 12.69999999999999929 ) ) ;
#22 = EDGE_CURVE ( 'NONE', #139, #264, #214, .T. ) ;
#23 = PLANE ( 'NONE',  #39 ) ;
#24 = VECTOR ( 'NONE', #195, 1000.000000000000000 ) ;
#25 = CARTESIAN_POINT ( 'NONE',  ( -12.70000000000000284, 12.70000000000000284, 12.69999999999999929 ) ) ;
#26 = CARTESIAN_POINT ( 'NONE',  ( 12.69999999999999574, 12.69999999999999574, 12.69999999999999929 ) ) ;
#27 = DIRECTION ( 'NONE',  ( -2.220446049250312588E-16, 1.000000000000000000, 0.000000000000000000 ) ) ;
#28 = ADVANCED_FACE ( 'NONE', ( #291 ), #153, .T. ) ;
#29 = DIRECTION ( 'NONE',  ( 1.000000000000000000, -2.220446049250312588E-16, 0.000000000000000000 ) ) ;
#30 = DATE_TIME_ROLE ( 'creation_date' ) ;
#31 = PERSON_AND_ORGANIZATION ( #219, #277 ) ;
#32 = APPROVAL_PERSON_ORGANIZATION ( #56, #308, #108 ) ;
#33 = VECTOR ( 'NONE', #220, 999.9999999999998863 ) ;
#34 = SECURITY_CLASSIFICATION_LEVEL ( 'unclassified' ) ;
#35 = CC_DESIGN_APPROVAL ( #79, ( #224 ) ) ;
#36 = COORDINATED_UNIVERSAL_TIME_OFFSET ( 8, 0, .AHEAD. ) ;
#37 = EDGE_LOOP ( 'NONE', ( #10, #138, #105, #83 ) ) ;
#38 = VERTEX_POINT ( 'NONE', #221 ) ;
#39 = AXIS2_PLACEMENT_3D ( 'NONE', #90, #87, #289 ) ;
#40 = EDGE_LOOP ( 'NONE', ( #43, #92, #257, #237 ) ) ;
#41 = ORIENTED_EDGE ( 'NONE', *, *, #297, .T. ) ;
#42 = CARTESIAN_POINT ( 'NONE',  ( 12.69999999999999929, 12.69999999999999929, 12.69999999999999929 ) ) ;
#43 = ORIENTED_EDGE ( 'NONE', *, *, #130, .T. ) ;
#44 = FACE_OUTER_BOUND ( 'NONE', #116, .T. ) ;
#45 = CARTESIAN_POINT ( 'NONE',  ( 12.69999999999999929, 12.69999999999999929, -12.69999999999999929 ) ) ;
#46 = EDGE_CURVE ( 'NONE', #306, #141, #67, .T. ) ;
#47 = CARTESIAN_POINT ( 'NONE',  ( -12.69999999999999751, -12.69999999999999929, 12.69999999999999929 ) ) ;
#48 = DIRECTION ( 'NONE',  ( 1.000000000000000000, 0.000000000000000000, 0.000000000000000000 ) ) ;
#49 = PLANE ( 'NONE',  #178 ) ;
#50 = EDGE_CURVE ( 'NONE', #262, #38, #122, .T. ) ;
#51 = PERSON_AND_ORGANIZATION ( #219, #277 ) ;
#52 = PLANE ( 'NONE',  #285 ) ;
#53 = CALENDAR_DATE ( 2021, 5, 1 ) ;
#54 =( NAMED_UNIT ( * ) SI_UNIT ( $, .STERADIAN. ) SOLID_ANGLE_UNIT ( ) );
#55 = EDGE_CURVE ( 'NONE', #12, #243, #94, .T. ) ;
#56 = PERSON_AND_ORGANIZATION ( #219, #277 ) ;
#57 = EDGE_LOOP ( 'NONE', ( #163, #212, #17, #300 ) ) ;
#58 = CALENDAR_DATE ( 2021, 5, 1 ) ;
#59 = EDGE_LOOP ( 'NONE', ( #245, #61, #109, #111 ) ) ;
#60 = ADVANCED_FACE ( 'NONE', ( #246 ), #167, .F. ) ;
#61 = ORIENTED_EDGE ( 'NONE', *, *, #22, .F. ) ;
#62 = PLANE ( 'NONE',  #255 ) ;
#63 = ORIENTED_EDGE ( 'NONE', *, *, #55, .T. ) ;
#64 = CARTESIAN_POINT ( 'NONE',  ( 0.000000000000000000, 0.000000000000000000, -12.69999999999999929 ) ) ;
#65 = CARTESIAN_POINT ( 'NONE',  ( 12.69999999999999929, 12.69999999999999929, 12.69999999999999929 ) ) ;
#66 = SECURITY_CLASSIFICATION ( '', '', #34 ) ;
#67 = LINE ( 'NONE', #146, #110 ) ;
#68 = CARTESIAN_POINT ( 'NONE',  ( 12.69999999999999929, 12.69999999999999929, 12.69999999999999929 ) ) ;
#69 = DIRECTION ( 'NONE',  ( 2.220446049250312588E-16, -1.000000000000000000, 0.000000000000000000 ) ) ;
#70 = VECTOR ( 'NONE', #192, 1000.000000000000000 ) ;
#71 = CARTESIAN_POINT ( 'NONE',  ( 12.69999999999999574, 12.69999999999999574, 12.69999999999999929 ) ) ;
#72 = AXIS2_PLACEMENT_3D ( 'NONE', #21, #5, #200 ) ;
#73 = DIRECTION ( 'NONE',  ( 1.000000000000000000, 0.000000000000000000, 0.000000000000000000 ) ) ;
#74 = CALENDAR_DATE ( 2021, 5, 1 ) ;
#75 = ADVANCED_FACE ( 'NONE', ( #194 ), #23, .F. ) ;
#76 = VECTOR ( 'NONE', #123, 1000.000000000000000 ) ;
#77 = EDGE_CURVE ( 'NONE', #241, #12, #189, .T. ) ;
#78 = CALENDAR_DATE ( 2021, 5, 1 ) ;
#79 = APPROVAL ( #129, 'UNSPECIFIED' ) ;
#80 = DATE_AND_TIME ( #58, #106 ) ;
#81 = ORIENTED_EDGE ( 'NONE', *, *, #133, .T. ) ;
#82 = PERSON_AND_ORGANIZATION ( #219, #277 ) ;
#83 = ORIENTED_EDGE ( 'NONE', *, *, #266, .T. ) ;
#84 = EDGE_CURVE ( 'NONE', #193, #187, #244, .T. ) ;
#85 = ORIENTED_EDGE ( 'NONE', *, *, #208, .F. ) ;
#86 = CLOSED_SHELL ( 'NONE', ( #149, #283, #60, #28, #156 ) ) ;
#87 = DIRECTION ( 'NONE',  ( 0.000000000000000000, 0.000000000000000000, 1.000000000000000000 ) ) ;
#88 = VERTEX_POINT ( 'NONE', #242 ) ;
#89 = VECTOR ( 'NONE', #225, 1000.000000000000000 ) ;
#90 = CARTESIAN_POINT ( 'NONE',  ( 0.000000000000000000, 0.000000000000000000, -12.69999999999999929 ) ) ;
#91 = PRODUCT_DEFINITION_SHAPE ( 'NONE', 'NONE',  #275 ) ;
#92 = ORIENTED_EDGE ( 'NONE', *, *, #46, .F. ) ;
#93 = EDGE_CURVE ( 'NONE', #141, #264, #19, .T. ) ;
#94 = LINE ( 'NONE', #215, #33 ) ;
#95 = VECTOR ( 'NONE', #114, 1000.000000000000000 ) ;
#96 = LINE ( 'NONE', #286, #144 ) ;
#97 = DIRECTION ( 'NONE',  ( -0.000000000000000000, -0.000000000000000000, -1.000000000000000000 ) ) ;
#98 = LINE ( 'NONE', #203, #173 ) ;
#99 = CARTESIAN_POINT ( 'NONE',  ( -12.69999999999999574, -12.69999999999999396, -12.69999999999999929 ) ) ;
#100 = PERSON_AND_ORGANIZATION_ROLE ( 'creator' ) ;
#101 = ADVANCED_BREP_SHAPE_REPRESENTATION ( 'N-SF1-BPBSC-25.4-620-1000', ( #180, #185, #314 ), #131 ) ;
#102 = DIRECTION ( 'NONE',  ( 1.000000000000000000, -2.220446049250312588E-16, 0.000000000000000000 ) ) ;
#103 = VECTOR ( 'NONE', #227, 1000.000000000000114 ) ;
#104 = DIRECTION ( 'NONE',  ( -2.220446049250312588E-16, 1.000000000000000000, 0.000000000000000000 ) ) ;
#105 = ORIENTED_EDGE ( 'NONE', *, *, #84, .T. ) ;
#106 = LOCAL_TIME ( 10, 15, 14.00000000000000000, #161 ) ;
#107 = EDGE_CURVE ( 'NONE', #262, #306, #120, .T. ) ;
#108 = APPROVAL_ROLE ( '' ) ;
#109 = ORIENTED_EDGE ( 'NONE', *, *, #279, .F. ) ;
#110 = VECTOR ( 'NONE', #169, 1000.000000000000000 ) ;
#111 = ORIENTED_EDGE ( 'NONE', *, *, #46, .T. ) ;
#112 = LOCAL_TIME ( 10, 15, 14.00000000000000000, #36 ) ;
#113 = EDGE_CURVE ( 'NONE', #139, #262, #165, .T. ) ;
#114 = DIRECTION ( 'NONE',  ( 1.000000000000000000, 0.000000000000000000, 0.000000000000000000 ) ) ;
#115 = CARTESIAN_POINT ( 'NONE',  ( 12.69999999999999929, 12.69999999999999929, -12.69999999999999929 ) ) ;
#116 = EDGE_LOOP ( 'NONE', ( #188, #162, #81, #254 ) ) ;
#117 = CARTESIAN_POINT ( 'NONE',  ( 12.69999999999999929, 12.69999999999999929, -12.69999999999999929 ) ) ;
#118 = ORIENTED_EDGE ( 'NONE', *, *, #113, .T. ) ;
#119 = EDGE_CURVE ( 'NONE', #193, #243, #96, .T. ) ;
#120 = LINE ( 'NONE', #65, #206 ) ;
#121 = CC_DESIGN_PERSON_AND_ORGANIZATION_ASSIGNMENT ( #82, #302, ( #224 ) ) ;
#122 = LINE ( 'NONE', #317, #312 ) ;
#123 = DIRECTION ( 'NONE',  ( 0.000000000000000000, 0.000000000000000000, -1.000000000000000000 ) ) ;
#124 = CARTESIAN_POINT ( 'NONE',  ( -12.69999999999999574, -12.69999999999999396, 12.69999999999999929 ) ) ;
#125 = CARTESIAN_POINT ( 'NONE',  ( 12.69999999999999929, 12.69999999999999929, 12.69999999999999929 ) ) ;
#126 = APPROVAL_DATE_TIME ( #152, #305 ) ;
#127 = FACE_OUTER_BOUND ( 'NONE', #37, .T. ) ;
#128 = CARTESIAN_POINT ( 'NONE',  ( 0.000000000000000000, 0.000000000000000000, 12.69999999999999929 ) ) ;
#129 = APPROVAL_STATUS ( 'not_yet_approved' ) ;
#130 = EDGE_CURVE ( 'NONE', #38, #141, #269, .T. ) ;
#131 =( GEOMETRIC_REPRESENTATION_CONTEXT ( 3 ) GLOBAL_UNCERTAINTY_ASSIGNED_CONTEXT ( ( #20 ) ) GLOBAL_UNIT_ASSIGNED_CONTEXT ( ( #234, #204, #54 ) ) REPRESENTATION_CONTEXT ( 'NONE', 'WORKASPACE' ) );
#132 = COORDINATED_UNIVERSAL_TIME_OFFSET ( 8, 0, .AHEAD. ) ;
#133 = EDGE_CURVE ( 'NONE', #241, #193, #316, .T. ) ;
#134 = PLANE ( 'NONE',  #304 ) ;
#135 = CARTESIAN_POINT ( 'NONE',  ( 0.000000000000000000, 0.000000000000000000, 12.69999999999999929 ) ) ;
#136 = EDGE_LOOP ( 'NONE', ( #284, #85, #159 ) ) ;
#137 = PERSON_AND_ORGANIZATION ( #219, #277 ) ;
#138 = ORIENTED_EDGE ( 'NONE', *, *, #119, .F. ) ;
#139 = VERTEX_POINT ( 'NONE', #263 ) ;
#140 = LOCAL_TIME ( 10, 15, 14.00000000000000000, #274 ) ;
#141 = VERTEX_POINT ( 'NONE', #45 ) ;
#142 = DIRECTION ( 'NONE',  ( 0.7071067811865475727, -0.7071067811865475727, 0.000000000000000000 ) ) ;
#143 = ORIENTED_EDGE ( 'NONE', *, *, #93, .F. ) ;
#144 = VECTOR ( 'NONE', #197, 1000.000000000000000 ) ;
#145 = DIRECTION ( 'NONE',  ( -0.000000000000000000, 0.000000000000000000, 1.000000000000000000 ) ) ;
#146 = CARTESIAN_POINT ( 'NONE',  ( 12.69999999999999929, 12.69999999999999929, 12.69999999999999929 ) ) ;
#147 = CARTESIAN_POINT ( 'NONE',  ( 12.69999999999999574, 12.69999999999999574, 12.69999999999999929 ) ) ;
#148 = CARTESIAN_POINT ( 'NONE',  ( -12.69999999999999574, -12.69999999999999396, 12.69999999999999929 ) ) ;
#149 = ADVANCED_FACE ( 'NONE', ( #168 ), #62, .F. ) ;
#150 = APPROVAL_STATUS ( 'not_yet_approved' ) ;
#151 = CARTESIAN_POINT ( 'NONE',  ( -12.69999999999999751, -12.69999999999999929, -12.69999999999999929 ) ) ;
#152 = DATE_AND_TIME ( #74, #140 ) ;
#153 = PLANE ( 'NONE',  #318 ) ;
#154 = CC_DESIGN_DATE_AND_TIME_ASSIGNMENT ( #295, #30, ( #275 ) ) ;
#155 = CARTESIAN_POINT ( 'NONE',  ( 12.69999999999999929, 12.69999999999999929, 12.69999999999999929 ) ) ;
#156 = ADVANCED_FACE ( 'NONE', ( #16 ), #287, .F. ) ;
#157 = PERSON_AND_ORGANIZATION_ROLE ( 'design_supplier' ) ;
#158 = EDGE_LOOP ( 'NONE', ( #15, #13, #303, #282 ) ) ;
#159 = ORIENTED_EDGE ( 'NONE', *, *, #84, .F. ) ;
#160 = ADVANCED_FACE ( 'NONE', ( #44 ), #248, .F. ) ;
#161 = COORDINATED_UNIVERSAL_TIME_OFFSET ( 8, 0, .AHEAD. ) ;
#162 = ORIENTED_EDGE ( 'NONE', *, *, #77, .F. ) ;
#163 = ORIENTED_EDGE ( 'NONE', *, *, #8, .T. ) ;
#164 = CC_DESIGN_APPROVAL ( #305, ( #275 ) ) ;
#165 = LINE ( 'NONE', #47, #201 ) ;
#166 = LINE ( 'NONE', #260, #95 ) ;
#167 = PLANE ( 'NONE',  #11 ) ;
#168 = FACE_OUTER_BOUND ( 'NONE', #59, .T. ) ;
#169 = DIRECTION ( 'NONE',  ( -0.000000000000000000, -0.000000000000000000, -1.000000000000000000 ) ) ;
#170 = DIRECTION ( 'NONE',  ( -0.7071067811865475727, -0.7071067811865475727, 0.000000000000000000 ) ) ;
#171 = PLANE ( 'NONE',  #296 ) ;
#172 = CARTESIAN_POINT ( 'NONE',  ( 0.000000000000000000, 0.000000000000000000, 0.000000000000000000 ) ) ;
#173 = VECTOR ( 'NONE', #273, 1000.000000000000000 ) ;
#174 = CARTESIAN_POINT ( 'NONE',  ( 12.69999999999999929, -12.69999999999999929, 12.69999999999999929 ) ) ;
#175 = CARTESIAN_POINT ( 'NONE',  ( -12.69999999999999574, -12.69999999999999396, -12.69999999999999929 ) ) ;
#176 = DIRECTION ( 'NONE',  ( 0.000000000000000000, -0.000000000000000000, 1.000000000000000000 ) ) ;
#177 = VECTOR ( 'NONE', #223, 1000.000000000000114 ) ;
#178 = AXIS2_PLACEMENT_3D ( 'NONE', #26, #69, #294 ) ;
#179 = LINE ( 'NONE', #175, #196 ) ;
#180 = MANIFOLD_SOLID_BREP ( 'Í¹Ì¨-À', #86 ) ;
#181 = APPROVAL_DATE_TIME ( #307, #308 ) ;
#182 = DESIGN_CONTEXT ( 'detailed design', #210, 'design' ) ;
#183 = APPROVAL_PERSON_ORGANIZATION ( #31, #79, #230 ) ;
#184 = ORIENTED_EDGE ( 'NONE', *, *, #8, .F. ) ;
#185 = MANIFOLD_SOLID_BREP ( '¾µÏ', #222 ) ;
#186 = PRODUCT_RELATED_PRODUCT_CATEGORY ( 'detail', '', ( #213 ) ) ;
#187 = VERTEX_POINT ( 'NONE', #25 ) ;
#188 = ORIENTED_EDGE ( 'NONE', *, *, #55, .F. ) ;
#189 = LINE ( 'NONE', #267, #76 ) ;
#190 = ORIENTED_EDGE ( 'NONE', *, *, #107, .T. ) ;
#191 = CC_DESIGN_APPROVAL ( #308, ( #66 ) ) ;
#192 = DIRECTION ( 'NONE',  ( -0.000000000000000000, 1.000000000000000000, -0.000000000000000000 ) ) ;
#193 = VERTEX_POINT ( 'NONE', #124 ) ;
#194 = FACE_OUTER_BOUND ( 'NONE', #281, .T. ) ;
#195 = DIRECTION ( 'NONE',  ( -2.220446049250312588E-16, 1.000000000000000000, 0.000000000000000000 ) ) ;
#196 = VECTOR ( 'NONE', #104, 1000.000000000000000 ) ;
#197 = DIRECTION ( 'NONE',  ( 0.000000000000000000, 0.000000000000000000, -1.000000000000000000 ) ) ;
#198 = CC_DESIGN_DATE_AND_TIME_ASSIGNMENT ( #80, #259, ( #66 ) ) ;
#199 = LINE ( 'NONE', #147, #89 ) ;
#200 = DIRECTION ( 'NONE',  ( 0.7071067811865475727, 0.7071067811865475727, 0.000000000000000000 ) ) ;
#201 = VECTOR ( 'NONE', #249, 1000.000000000000000 ) ;
#202 = COORDINATED_UNIVERSAL_TIME_OFFSET ( 8, 0, .AHEAD. ) ;
#203 = CARTESIAN_POINT ( 'NONE',  ( -12.70000000000000284, 12.70000000000000284, 12.69999999999999929 ) ) ;
#204 =( NAMED_UNIT ( * ) PLANE_ANGLE_UNIT ( ) SI_UNIT ( $, .RADIAN. ) );
#205 = FACE_OUTER_BOUND ( 'NONE', #136, .T. ) ;
#206 = VECTOR ( 'NONE', #268, 1000.000000000000000 ) ;
#207 = PERSON_AND_ORGANIZATION_ROLE ( 'classification_officer' ) ;
#208 = EDGE_CURVE ( 'NONE', #187, #241, #199, .T. ) ;
#209 = EDGE_CURVE ( 'NONE', #88, #12, #252, .T. ) ;
#210 = APPLICATION_CONTEXT ( 'configuration controlled 3d designs of mechanical parts and assemblies' ) ;
#211 = EDGE_LOOP ( 'NONE', ( #143, #311, #184 ) ) ;
#212 = ORIENTED_EDGE ( 'NONE', *, *, #50, .F. ) ;
#213 = PRODUCT ( 'N-SF1-BPBSC-25.4-620-1000', 'N-SF1-BPBSC-25.4-620-1000', '', ( #293 ) ) ;
#214 = LINE ( 'NONE', #309, #18 ) ;
#215 = CARTESIAN_POINT ( 'NONE',  ( 12.69999999999999574, 12.69999999999999574, -12.69999999999999929 ) ) ;
#216 = ORIENTED_EDGE ( 'NONE', *, *, #209, .T. ) ;
#217 = DIRECTION ( 'NONE',  ( 0.7071067811865474617, 0.7071067811865474617, 0.000000000000000000 ) ) ;
#218 = CARTESIAN_POINT ( 'NONE',  ( 12.69999999999999574, 12.69999999999999574, -12.69999999999999929 ) ) ;
#219 = PERSON ( 'UNSPECIFIED', 'UNSPECIFIED', 'UNSPECIFIED', ('UNSPECIFIED'), ('UNSPECIFIED'), ('UNSPECIFIED') ) ;
#220 = DIRECTION ( 'NONE',  ( -0.7071067811865475727, -0.7071067811865475727, 0.000000000000000000 ) ) ;
#221 = CARTESIAN_POINT ( 'NONE',  ( 12.69999999999999929, -12.69999999999999929, -12.69999999999999929 ) ) ;
#222 = CLOSED_SHELL ( 'NONE', ( #160, #226, #233, #313, #75 ) ) ;
#223 = DIRECTION ( 'NONE',  ( -0.7071067811865474617, -0.7071067811865474617, 0.000000000000000000 ) ) ;
#224 = PRODUCT_DEFINITION_FORMATION_WITH_SPECIFIED_SOURCE ( 'ANY', '', #213, .NOT_KNOWN. ) ;
#225 = DIRECTION ( 'NONE',  ( 1.000000000000000000, -2.220446049250312588E-16, 0.000000000000000000 ) ) ;
#226 = ADVANCED_FACE ( 'NONE', ( #127 ), #171, .F. ) ;
#227 = DIRECTION ( 'NONE',  ( -0.7071067811865474617, -0.7071067811865474617, 0.000000000000000000 ) ) ;
#228 = PERSON_AND_ORGANIZATION ( #219, #277 ) ;
#229 = APPLICATION_CONTEXT ( 'configuration controlled 3d designs of mechanical parts and assemblies' ) ;
#230 = APPROVAL_ROLE ( '' ) ;
#231 = DIRECTION ( 'NONE',  ( -0.000000000000000000, 0.000000000000000000, 1.000000000000000000 ) ) ;
#232 = CALENDAR_DATE ( 2021, 5, 1 ) ;
#233 = ADVANCED_FACE ( 'NONE', ( #1 ), #49, .F. ) ;
#234 =( LENGTH_UNIT ( ) NAMED_UNIT ( * ) SI_UNIT ( .MILLI., .METRE. ) );
#235 = CARTESIAN_POINT ( 'NONE',  ( -12.69999999999999751, -12.69999999999999929, 12.69999999999999929 ) ) ;
#236 = AXIS2_PLACEMENT_3D ( 'NONE', #64, #145, #265 ) ;
#237 = ORIENTED_EDGE ( 'NONE', *, *, #50, .T. ) ;
#238 = CC_DESIGN_PERSON_AND_ORGANIZATION_ASSIGNMENT ( #137, #207, ( #66 ) ) ;
#239 = ORIENTED_EDGE ( 'NONE', *, *, #279, .T. ) ;
#240 = PERSON_AND_ORGANIZATION ( #219, #277 ) ;
#241 = VERTEX_POINT ( 'NONE', #71 ) ;
#242 = CARTESIAN_POINT ( 'NONE',  ( -12.70000000000000284, 12.70000000000000284, -12.69999999999999929 ) ) ;
#243 = VERTEX_POINT ( 'NONE', #99 ) ;
#244 = LINE ( 'NONE', #288, #24 ) ;
#245 = ORIENTED_EDGE ( 'NONE', *, *, #93, .T. ) ;
#246 = FACE_OUTER_BOUND ( 'NONE', #40, .T. ) ;
#247 = CC_DESIGN_PERSON_AND_ORGANIZATION_ASSIGNMENT ( #299, #271, ( #213 ) ) ;
#248 = PLANE ( 'NONE',  #72 ) ;
#249 = DIRECTION ( 'NONE',  ( 1.000000000000000000, 0.000000000000000000, 0.000000000000000000 ) ) ;
#250 = LINE ( 'NONE', #125, #103 ) ;
#251 = DIRECTION ( 'NONE',  ( 0.000000000000000000, 0.000000000000000000, 1.000000000000000000 ) ) ;
#252 = LINE ( 'NONE', #270, #261 ) ;
#253 = APPLICATION_PROTOCOL_DEFINITION ( 'international standard', 'config_control_design', 1994, #229 ) ;
#254 = ORIENTED_EDGE ( 'NONE', *, *, #119, .T. ) ;
#255 = AXIS2_PLACEMENT_3D ( 'NONE', #42, #142, #217 ) ;
#256 = APPROVAL_STATUS ( 'not_yet_approved' ) ;
#257 = ORIENTED_EDGE ( 'NONE', *, *, #107, .F. ) ;
#258 = EDGE_LOOP ( 'NONE', ( #239, #118, #190 ) ) ;
#259 = DATE_TIME_ROLE ( 'classification_date' ) ;
#260 = CARTESIAN_POINT ( 'NONE',  ( -12.69999999999999751, -12.69999999999999929, -12.69999999999999929 ) ) ;
#261 = VECTOR ( 'NONE', #29, 1000.000000000000000 ) ;
#262 = VERTEX_POINT ( 'NONE', #174 ) ;
#263 = CARTESIAN_POINT ( 'NONE',  ( -12.69999999999999751, -12.69999999999999929, 12.69999999999999929 ) ) ;
#264 = VERTEX_POINT ( 'NONE', #151 ) ;
#265 = DIRECTION ( 'NONE',  ( 1.000000000000000000, 0.000000000000000000, 0.000000000000000000 ) ) ;
#266 = EDGE_CURVE ( 'NONE', #187, #88, #98, .T. ) ;
#267 = CARTESIAN_POINT ( 'NONE',  ( 12.69999999999999574, 12.69999999999999574, 12.69999999999999929 ) ) ;
#268 = DIRECTION ( 'NONE',  ( -0.000000000000000000, 1.000000000000000000, -0.000000000000000000 ) ) ;
#269 = LINE ( 'NONE', #115, #70 ) ;
#270 = CARTESIAN_POINT ( 'NONE',  ( 12.69999999999999574, 12.69999999999999574, -12.69999999999999929 ) ) ;
#271 = PERSON_AND_ORGANIZATION_ROLE ( 'design_owner' ) ;
#272 = APPROVAL_PERSON_ORGANIZATION ( #51, #305, #298 ) ;
#273 = DIRECTION ( 'NONE',  ( 0.000000000000000000, 0.000000000000000000, -1.000000000000000000 ) ) ;
#274 = COORDINATED_UNIVERSAL_TIME_OFFSET ( 8, 0, .AHEAD. ) ;
#275 = PRODUCT_DEFINITION ( 'UNKNOWN', '', #224, #182 ) ;
#276 = APPROVAL_DATE_TIME ( #7, #79 ) ;
#277 = ORGANIZATION ( 'UNSPECIFIED', 'UNSPECIFIED', '' ) ;
#278 = DIRECTION ( 'NONE',  ( 0.000000000000000000, 0.000000000000000000, 1.000000000000000000 ) ) ;
#279 = EDGE_CURVE ( 'NONE', #306, #139, #250, .T. ) ;
#280 = SHAPE_DEFINITION_REPRESENTATION ( #91, #101 ) ;
#281 = EDGE_LOOP ( 'NONE', ( #63, #41, #216 ) ) ;
#282 = ORIENTED_EDGE ( 'NONE', *, *, #77, .T. ) ;
#283 = ADVANCED_FACE ( 'NONE', ( #2 ), #52, .F. ) ;
#284 = ORIENTED_EDGE ( 'NONE', *, *, #133, .F. ) ;
#285 = AXIS2_PLACEMENT_3D ( 'NONE', #235, #6, #176 ) ;
#286 = CARTESIAN_POINT ( 'NONE',  ( -12.69999999999999574, -12.69999999999999396, 12.69999999999999929 ) ) ;
#287 = PLANE ( 'NONE',  #236 ) ;
#288 = CARTESIAN_POINT ( 'NONE',  ( -12.69999999999999574, -12.69999999999999396, 12.69999999999999929 ) ) ;
#289 = DIRECTION ( 'NONE',  ( -2.220446049250312588E-16, 1.000000000000000000, 0.000000000000000000 ) ) ;
#290 = CC_DESIGN_SECURITY_CLASSIFICATION ( #66, ( #224 ) ) ;
#291 = FACE_OUTER_BOUND ( 'NONE', #258, .T. ) ;
#292 = DIRECTION ( 'NONE',  ( 0.000000000000000000, 0.000000000000000000, 1.000000000000000000 ) ) ;
#293 = MECHANICAL_CONTEXT ( 'NONE', #229, 'mechanical' ) ;
#294 = DIRECTION ( 'NONE',  ( 0.000000000000000000, 0.000000000000000000, 1.000000000000000000 ) ) ;
#295 = DATE_AND_TIME ( #53, #320 ) ;
#296 = AXIS2_PLACEMENT_3D ( 'NONE', #148, #102, #292 ) ;
#297 = EDGE_CURVE ( 'NONE', #243, #88, #179, .T. ) ;
#298 = APPROVAL_ROLE ( '' ) ;
#299 = PERSON_AND_ORGANIZATION ( #219, #277 ) ;
#300 = ORIENTED_EDGE ( 'NONE', *, *, #22, .T. ) ;
#301 = LOCAL_TIME ( 10, 15, 14.00000000000000000, #132 ) ;
#302 = PERSON_AND_ORGANIZATION_ROLE ( 'creator' ) ;
#303 = ORIENTED_EDGE ( 'NONE', *, *, #208, .T. ) ;
#304 = AXIS2_PLACEMENT_3D ( 'NONE', #135, #278, #27 ) ;
#305 = APPROVAL ( #150, 'UNSPECIFIED' ) ;
#306 = VERTEX_POINT ( 'NONE', #155 ) ;
#307 = DATE_AND_TIME ( #78, #112 ) ;
#308 = APPROVAL ( #256, 'UNSPECIFIED' ) ;
#309 = CARTESIAN_POINT ( 'NONE',  ( -12.69999999999999751, -12.69999999999999929, 12.69999999999999929 ) ) ;
#310 = CARTESIAN_POINT ( 'NONE',  ( 12.69999999999999574, 12.69999999999999574, 12.69999999999999929 ) ) ;
#311 = ORIENTED_EDGE ( 'NONE', *, *, #130, .F. ) ;
#312 = VECTOR ( 'NONE', #319, 1000.000000000000000 ) ;
#313 = ADVANCED_FACE ( 'NONE', ( #205 ), #134, .T. ) ;
#314 = AXIS2_PLACEMENT_3D ( 'NONE', #172, #251, #73 ) ;
#315 = DIRECTION ( 'NONE',  ( 0.000000000000000000, 0.000000000000000000, 1.000000000000000000 ) ) ;
#316 = LINE ( 'NONE', #310, #4 ) ;
#317 = CARTESIAN_POINT ( 'NONE',  ( 12.69999999999999929, -12.69999999999999929, 12.69999999999999929 ) ) ;
#318 = AXIS2_PLACEMENT_3D ( 'NONE', #128, #231, #48 ) ;
#319 = DIRECTION ( 'NONE',  ( -0.000000000000000000, -0.000000000000000000, -1.000000000000000000 ) ) ;
#320 = LOCAL_TIME ( 10, 15, 14.00000000000000000, #202 ) ;
#321 = CC_DESIGN_PERSON_AND_ORGANIZATION_ASSIGNMENT ( #240, #157, ( #224 ) ) ;
ENDSEC;
END-ISO-10303-21;
